3 Doors Down – Its Not My Time Bass

3 Doors Down
It's Not My Time
Bass Tabs

This is my first bass tab so if it's not all right just bear with me. The song is very 
on bass you just have to be able to carry a rythem. If you have any request for any song 

Intro
G|---------------------------|    |-------|
D|---------------------------| X2 |-------|
A|------------------3-33-----|    |-------|
E|-5-3-1-11-1-3-33-3-----3-3-|    |-5-3-1-|

Verse
G|------------------------|    |---------------------------------|
D|------------------------| X2 |---------------------------------| X2
A|------------------------|    |---------------------------------|
E|-1~----------5~---------|    |-111111111111111-555555555555555-|

Chorus X2
G|---------------------------|  |-------|
D|---------------------------|  |-------|
A|------------------3-33-----|  |-------|
E|-5-3-1-11-1-3-33-3-----3-3-|  |-5-3-1-|

Post Chorus
G|----------------------|
D|----------------------|
A|----------------------|
E|-1~--1-1----1-5-55--/-|

Verse
Chorus X4

Guitar Solo
G|------------------------------------|
D|------------------------------------| X4
A|------------------------------------|
E|-11111111-33333333-5555555555555555-|

Chorus X4
Guitar solo part for bass

Outro
G|-------------------------|
D|-------------------------|
A|-------------------------|
E|-5-----5-----1~------3-5~|

And there ya have it.
One great song from 3 Doors Down.
Enjoy!
            
Please rate this chords

Your page rank:

Other People See