Coldplay – Animals

[Intro]
 
e|-------------|-------------|-------------|-------------|
b|-------------|-------------|-------------|-------------|
G|-12-12-12-10-|-12-12-12-10-|-12-12-12-10-|-12-12-12-10-|
D|-------------|-------------|-------------|-------------|
A|-------------|-------------|-------------|-------------|
E|-------------|-------------|-------------|-------------|
 
e|-------------|-------------|-------------|-------------|
b|-------------|-------------|-------------|-------------|
G|-12-12-12-10-|-12-12-12-10-|-12-12-12-10-|-12-12-12-10-|
D|-------------|-------------|-------------|-------------|
A|-------------|-------------|-------------|-------------|
E|-------------|-------------|-------------|-------------|
 
[Verse 1]
C
Animals we are,
Am                        G#
Disposable, collapsable and raw,
C         Em              A7
In you go into some crowded room,
C
And animals that climb,
Am                                      G#m
And they're climbing over you until you say,
C                    Em   A7
"Off you go, off you go,"
 
[Instrumental]
 
e|-----------|-----------|-----------|-----------|
b|-9-4-5-9-4-|-9-4-5-9-4-|-9-4-5-9-4-|-9-4-5-9-4-|
G|-----------|-----------|-----------|-----------|
D|-----------|-----------|-----------|-----------|
A|-----------|-----------|-----------|-----------|
E|-----------|-----------|-----------|-----------|
 
[Verse 2]
C
Animal I am,
Am                                      G#m
And I'm looking for an answer just like you,
C             Em           A7
I should know which way to turn,
C
An animal that runs,
Am                                  G#m
And I ran away from you because I'm scared,
C                    Em   A7
"Off you go, off you go,"
 
[Chorus]
C#m                  G#m
If you're gonna go, go now,
C#m                    G#m
If you're gonna go, go now,
C#m                  G#m
I forgot to tell you now,
C#m                G#m
So if you're gonna go,
Em   G#m
Go   now,
 
[Verse 3]
C
Animal you are,
Am                          G#m
Disposable, defenceless yes and,
C                 Em              A7
Watch your mouth, boys watch your mouth,
C
I'm an animal that runs,
Am                           G#m
And I made all my excuses to you,
C                      Em          A7
And I missed my chance by a stones throw,
 
[Chorus]
C#m                    G#m
If you're gonna go, go now,
C#m                    G#m
If you're gonna go, go now,
C#m                  G#m
I forgot to tell you now,
C#m                G#m
So if you're gonna go,
Em   G#m   Em   G#m
Go   now,  Go   now,
 
e|---------14-14-14-12-12-12-----------|
b|---------------------------9-11-p-10-|
G|-------------------------------------|
D|-------------------------------------|
A|-------------------------------------|
E|-------------------------------------|
  Em   G#m                     Em   G#m
  Go   now,                    Go   now,
 
e|-14-14-14-12-12-12---------|
b|-------------------9-11-10-|
G|---------------------------|
D|---------------------------|
A|---------------------------|
E|---------------------------|
 
[Fade]
C#m
Now crumble
C#m
Crumble and fall,
C#m                      F
Crumble and fall like an animal,
C#m
Yes I crumble,
C#m
Crumble and fall,
C#m                      Fm
Crumble and fall like an animal,
C#m
Yes I crumble,
C#m
Crumble and fall,
C#m                      F
Crumble and fall like an animal,
C#m
Yes I crumble,
C#m
Crumble and fall,
C#m                      F
Crumble and fall like an animal
 
[Instrumental]
 
   C#m               G#m       C#m               G#m
e|-14-14-14-12-12-12---------|-14-14-14-12-12-12---------|
b|-------------------9-11-10-|-------------------9-11-10-|
G|---------------------------|---------------------------|
D|---------------------------|---------------------------|
A|---------------------------|---------------------------|
E|---------------------------|---------------------------|
 
   C#m               G#m       C#m               G#m
e|-14-14-14-12-12-12---------|-14-14-14-12-12-12---------|
b|-------------------9-11-10-|-------------------9-11-10-|
G|---------------------------|---------------------------|
D|---------------------------|---------------------------|
A|---------------------------|---------------------------|
E|---------------------------|---------------------------|
            
Please rate this chords

Your page rank:

Other People See