Coldplay – Champion Of The World

[Intro]

e|-----------------------------------------------------------|
B|-----------------------------------------------------------|
G|-----------------------------------------------------------|
D|--10--9--10--9--10--9--10--9--10--7--10--7--9--10--12--10--|
A|-----------------------------------------------------------|
E|-----------------------------------------------------------|

e|------------------------------------------------------------------|
B|------------------------------------------------------------------|
G|------------------------------------------------------------------|
D|--10--9--10--9--10--9--10--9--10--7--10--7--9--10--12--10--10--9--|
A|------------------------------------------------------------------|
E|------------------------------------------------------------------|


[Verse 1]

This mountainside is suicide (at 0:57)
                          
e|-------------------------------------|
B|-------------------------------------|
G|-------------------------------------|
D|--10--9--10--9--10--9--10--9--10--7--|
A|-------------------------------------|
E|-------------------------------------|


[Chorus 1]

e|-----------------------------------------------------------|
B|-----------------------------------------------------------|
G|-----------------------------------------------------------|
D|--10--9--10--9--10--9--10--9--10--7--10--7--9--10--12--10--|
A|-----------------------------------------------------------|
E|-----------------------------------------------------------|

e|------------------------------------------------------------------|
B|------------------------------------------------------------------|
G|------------------------------------------------------------------|
D|--10--9--10--9--10--9--10--9--10--7--10--7--9--10--12--10--10--9--|
A|------------------------------------------------------------------|
E|------------------------------------------------------------------|


[Verse 2]

I tried my best to stay alight

e|-------------------|-------------------|
B|----------------1--|----------------1--|
G|--4--------2----0--|--4--------2----0--|
D|--5--------3----2--|--5--------3----2--|
A|--5--------3----3--|--5--------3----3--|
E|--3----------------|--3----------------|

e|------------------------------------------------------------------|
B|--------------------------------------------------1-1-1-1-1-1-1-1-|
G|--4-4-4-4-4-4-4-4-4-4-4-4-4-4-4-4-2-2-2-2-2-2-2-2-0-0-0-0-0-0-0-0-| x2
D|--5-5-5-5-5-5-5-5-5-5-5-5-5-5-5-5-3-3-3-3-3-3-3-3-2-2-2-2-2-2-2-2-|
A|--5-5-5-5-5-5-5-5-5-5-5-5-5-5-5-5-3-3-3-3-3-3-3-3-3-3-3-3-3-3-3-3-|
E|--3-3-3-3-3-3-3-3-3-3-3-3-3-3-3-3---------------------------------|


[Chorus 2]
                             
(When I sail) And when I sail

e|--19-19-19-19-19-19-19-19-19-19-19-19-19-19-19-19-|
B|---x--x--x--x--x--x--x--x--x--x--x--x--x--x--x--x-|
G|---x--x--x--x--x--x--x--x--x--x--x--x--x--x--x--x-| x7
D|--------------------------------------------------|
A|--------------------------------------------------|
E|--------------------------------------------------|

e|--17-17-17-17-17-17-17-17-17-17-17-17-17-17-17-17-|
B|---x--x--x--x--x--x--x--x--x--x--x--x--x--x--x--x-|
G|---x--x--x--x--x--x--x--x--x--x--x--x--x--x--x--x-|
D|--------------------------------------------------|
A|--------------------------------------------------|
E|--------------------------------------------------|

e|--19-19-19-19-19-19-19-19-19-19-19-19-19-19-19-19-|
B|---x--x--x--x--x--x--x--x--x--x--x--x--x--x--x--x-|
G|---x--x--x--x--x--x--x--x--x--x--x--x--x--x--x--x-| x7
D|--------------------------------------------------|
A|--------------------------------------------------|
E|--------------------------------------------------|

e|--17-17-17-17-17-17-17-17-17-17-17-17-17-17-17-17-|
B|---x--x--x--x--x--x--x--x--x--x--x--x--x--x--x--x-|
G|---x--x--x--x--x--x--x--x--x--x--x--x--x--x--x--x-|
D|--------------------------------------------------|
A|--------------------------------------------------|
E|--------------------------------------------------|

e|-----------------------------------------------------------|
B|-----------------------------------------------------------|
G|-----------------------------------------------------------|
D|--10--9--10--9--10--9--10--9--10--7--10--7--9--10--12--10--|
A|-----------------------------------------------------------|
E|-----------------------------------------------------------|

e|------------------------------------------------------------------|
B|------------------------------------------------------------------|
G|------------------------------------------------------------------|
D|--10--9--10--9--10--9--10--9--10--7--10--7--9--10--12--10--10--9--|
A|------------------------------------------------------------------|
E|------------------------------------------------------------------|


[Outro]

So I'm flying on my bicycle

e|--8--7--8--7--8--7--8--7--8--5--8--5--7--8--10--8-|
B|--------------------------------------------------|
G|--------------------------------------------------| x4
D|--------------------------------------------------|
A|--------------------------------------------------|
E|--------------------------------------------------|

e|----------------------------------------------------------------------|
B|--13-12-12-13-12-12-13-12-12-13-12-12-13-12-12-10-10---8--8--5-5--3-3-|
G|----------------------------------------------------------------------| x4
D|--14-12-12-14-12-12-14-12-12-14-12-12-14-12-12-12-12--10-10--5-5--5-5-|
A|----------------------------------------------------------------------|
E|----------------------------------------------------------------------|

            
Please rate this chords

Your page rank:

Other People See