Hoobastank – The Reason Bass


Intro (0:09)
G| -------- |
D| -------- |
A| 7------- | Start with volume off, play this note,
E| -------- | then fade it in, and begin the verse.
B| -------- |

Verse (0:11)
G| ---------------------------------------------------------------- |
D| ---------------------------------------------------------------- |
A| 7-7-7-7-7-7-7-7-7-7-7-7-7-7-7-74-4-4-4-4-4-4-4-4-4-4-4-4-4-4-4/ |x2
E| ---------------------------------------------------------------- |
B| ---------------------------------------------------------------- |

G| ---------------------------------------------------------------- |
D| 7-7-7-7-7-7-7-7-7-7-7-7-7-7-7-7--------------------------------- |
A| ---------------------------------------------------------------- |
E| --------------------------------7-7-7-7-7-7-7-7-7-7-7-7-7-7-7-7- |
B| ---------------------------------------------------------------- |

Chorus (0:46)
G| ---------------------------------------------------------------- |
D| ---------------------------------------------------------------- |
A| ---------------------------------------------------------------- |
E| 0-0-0-0-0-0-0-0-0-0-0-0-0-0-0-0--------------------------------- |
B| --------------------------------2-2-2-2-2-2-2-2-2-2-2-2-2-2-2-2- |

G| ---------------------------------------------------------------- |
D| ---------------------------------------------------------------- |
A| 0-0-0-0-0-0-0-0-0-0-0-0-0-0-0-0--------------------------------- |
E| ---------------------------------------------------------------- |
B| --------------------------------0-0-0-0-0-0-0-0-0-0-0-0-0-0-0-0- |

Verse (1:09)

Chorus (1:44)

Bridge (2:07)
G| ---------------------------------------------------------------- |
D| ---------------------------------------------------------------- |
A| ------------------------------7-------7-------7-------7--------- |
E| ------5-------5-------5---------0-------0-------0-------0-----5- |
B| 3-------3-------3-------3--------------------------------------- |

G| ---------------------------------------------------------------- |
D| ---------------------------------------------------------------- |
A| ------------------------------7-------7-------7----------------- |
E| ------5-------5-------5---------0-------0-------0--------------- |
B| 3-------3-------3-------3--------------------------------------- |

G| ---------------------------------------------------------------- |
D| ---------------------------------------------------------------- |
A| ---------------------------------------------------------------- |
E| 0--------------------------------------------------------------- |
B| ---------------------------------------------------------------- |

Pre-Chorus (2:42)
G| ---------------------------------------------------------------- |
D| 7-7-7-7-7-7-7-7-7-7-7-7-7-7-7-7--------------------------------- |
A| ---------------------------------------------------------------- |
E| --------------------------------7-7-7-7-7-7-7-7-7-7-7-7-7-7-7-7- |
B| ---------------------------------------------------------------- |

Chorus x2 (2:53) (3:16)

Ending (3:40)
G| ---------------------------------------------------------------- |
D| ---------------------------------------------------------------- |
A| ---------------------------------------------------------------- |
E| 0--------------------------------------------------------------- |
B| ---------------------------------------------------------------- |
            
Please rate this chords

Your page rank:

Other People See