James Blunt – You’re Beautiful

Capo 3.

[Intro]

E|------------------------------------------|
B|---1-0-1-------1-0-1-3-----1-0-1----------|
G|------------------------------------------|
D|--2----------2-----------------------2-3--|  
A|------------------------------------------|
E|------------------------------------------|

E|-------------------------------------------|
B|---1-0-1---*----1-0-1-3-----1-0-1----------|
G|-------------------------------------------|
D|--2-----------2-----------------------2-3--|  
A|-------------------------------------------|
E|-------------------------------------------|

(* = sing row here)
*My life is brilliant 


[Verse]

C
 My life is brilliant 
G
 My love is pure
Am
 I saw an angel
F
 Of that I'm sure
    C
She smiled at me on the subway
        G
She was with another man
    Am
But I won't lose no sleep on that
      Am
'Cause I've got a plan


[Chorus]

F             G
 You're beautiful
C
 You're beautiful
F            G           C
 You're beautiful, it's true
  F        G
I saw your face
     C        Am
In a crowded place
      F          G       Am
And I don't know what to do
            F     G       C
'Cause I'll never be with you

E|------------------------------------------|
B|---1-0-1-------1-0-1-3-----1-0-1----------|
G|------------------------------------------|
D|--2----------2-----------------------2-3--|  
A|------------------------------------------|
E|------------------------------------------|


[Verse 2]

         C
Yes, she caught my eye
       G
As we walked on by
          Am
She could see from my face that I was
F
 Flying high
    C                       G
And I don't think that I'll see her again
    Am                            
But we shared a moment that will last to the end


[Chorus]

F               G
 You're beautiful
C
 You're beautiful
F                G        C
 You're beautiful, it's true
  F        G
I saw your face
     C        Am
In a crowded place
      F          G       Am
Amd I don't know what to do
            F     G        C
'Cause I'll never be with you


[Bridge]

F     Am    F     Am    F     Am    Dm  G
La-la-la-la La-la-la-la La-la-la-la La-a


[Chorus]

F             G
 You're beautiful
C
 You're beautiful
F              G         C
 You're beautiful, it's true
      F             G
There must be an angel
       C             Am
With a smile on her face
         F                                G   
When she thought up that I should be with you

E|---------------------|
B|--5---5----3------5--|
G|--5---5----4-4----5--|
D|--5-5-5----5-5----7--|  
A|---------------------|
E|---------------------|

         F       G         Am
But it's time to face the truth
        F     G        C
I will never be with you            
Please rate this chords
James Blunt – You’re Beautiful Capo 3. [Intro] E|------------------------------------------| B|---1-0-1-------1-0-1-3-----1-0-1----------| G|------------------------------------------| D|--2----------2-----------------------2-3--| A|------------------------------------------| E|------------------------------------------| E|-------------------------------------------| B|---1-0-1---*----1-0-1-3-----1-0-1----------| G|-------------------------------------------| D|--2-----------2-----------------------2-3--| A|-------------------------------------------| E|-------------------------------------------| (* = sing row here) *My life is brilliant [Verse] C My life is brilliant G My love is pure Am I saw an angel F Of that I'm sure C She smiled at me on the subway G She […]
5 1 5 2

Your page rank:

Other People See