Jeff Buckley – Grace

[Intro]
   Fm                      Gm
E|-------1-----------------------1-----3p1-----------------3--------------------|
B|-----1---3p1-----------------1---3p1-----3p1-----------3---5p3----------------|
G|---1---------3p1-3p1-3p1---1-----------------3p1-----3---------5p3-5p3-5p3----|
D|-3-----------------------3------------------------/5-----------------------5--|
A|------------------------------------------------------------------------------|
E|------------------------------------------------------------------------------|
                            Em
E|-----3-----5p3------------0--------------------|
B|---3---5p3-----5p3--------0--------------------|
G|-3-----------------5p3----0--------------------|
D|--------------------------2--------------------|
A|--------------------------2--------------------|
E|--------------------------0--------------------|


[Intro]
             Em
There's the moon asking to stay
Fmaj9#11              Em              Eb
Long enough for the clouds to fly me away
         Fmaj9#11         Em       Eb               Em
Well it's my time coming, I'm not afraid, afraid to die

[Pre-Chorus]
    Em   F#m6  A7sus2  A6     Bm  A6/9  Em
My fading voice sings   of loooooooooooove
         Em  F#m6  A7sus2  A6    Bm   A6/9  Em
But she cries to the clicking of time, oh,  time

[Chorus]
Fmaj9#11          Em             Eb
Wait in the fire, wait in the fire
Fmaj9#11          Em             Eb   Em
Wait in the fire, wait in the fire  Buuuuuuuurn

[Interlude]

||: Fm | Gm | Em :||
||:D Dmaj7 | D Dmaj7 | D5 Dsus4 D :||

[Verse 2]
         Em
And she weeps on my arm
Fmaj9#11               Em        Eb
Walking to the bright lights in sorrow
   Fmaj9#11               Em              Eb
Oh drink a bit of wine we both might go tomorrow
       Em
Oh my love

[Pre-Chorus]
         Em     F#m6  A7sus2  A6         Bm    A6/9        Em
And the rain is fallllllling     and I believe my time has come
     Em      F#m6   A7sus2  A6         Bm    A6/9    Em
It reminds me of the pain      I might leave, leave behind

[Chorus]
Fmaj9#11          Em             Eb
Wait in the fire, wait in the fire
Fmaj9#11          Em             Eb   Em
Wait in the fire, wait in the fire  Buuuuuuuurn

[Bridge]
||: Eb6/9  F6/9  G6/9 | F#6/9  F6/9 E6/9  Em ||

||: Em  F#m6  A7sus2  A6 |  Bm  A6/9 :||

     Em        F#m6   A7sus2    A6
(It reminds me of the pain)
         Bm    A6/9    Em
I might leave, leave behind

[Interlude]
||: Fm | Gm | Em ||

||:D Dmaj7 | D Dmaj7 | D5 Dsus4 D :||

[Outro]
       Em
And I feel them drown my name
   Fmaj9#11   Em         Eb
So easy to   know and forget with this kiss
    Fmaj9#11      Em         Eb           Fmaj9#11  Em  Eb
I'm not afraid to go but it goes so slow
Fmaj9#11          Em                Eb                 Fmaj9#11  Em  Eb
Wait in the fire, wait in the fire, oh oh yea oh oh oh yeah unh
            Fmaj9#11           Em               Eb
Wait, wait, wait in the fire, wait in the fire
Fmaj9#11           Em               Eb
Wait in the fire, wait in the fire, ah uh unh ah

            
Please rate this chords

Your page rank:

Other People See