Led Zeppelin – Houses Of The Holy

Led Zeppelin - Houses Of The Holy
G|------------------|-----------|
D|----77-----77-7-7-|----77-7---|
A|340----340--------|340-----7--|
E|------------------|-----------|

  verse riff (x3)  end 1st verse  end for other verses
G|----------------|-------------|----------------------|
D|----------------|---/7-3/5----|---/7-3/5-------------|
A|345-5-5-5-3-----|345------5-0-|345------5-0------340-|
E|------------0000|-------------|-------------0000-----|

===========Artist: Led Zeppelin

Standard tuning(E,A,D,G)

Main Riff
G
D            7 7
A     3 4 0
E  

Verse Riff
G
D
A  345 5 5 5 3
E              0000
            
Please rate this chords

Your page rank:

Other People See