Linkin Park – It Goes Through

[Guitar I]
[Intro (x2)]

Am  F  G  D

[Verse I (One strum per chord for verse I.)]

      Am            F
Oh my sun, it won't shine
         G                       D
It won't light up the back of my mind
          Am                F
And these fires, they won't burn
       G                         D
But to blacken the memories I've earned
          F            G
And these walls are so thin
         E                       D
But they somehow keep holding me in
            F             G
'Cause I've pushed, and I know
          E                       E
What's to come at the end of this road


[Guitar II (This is optional, but can be played along 
with guitar I's chords during the verses.)]
E|-----------------------|----------------------|----------------------|
B|-----------------------|----------------------|----------------------|
G|-----------------------|----------------------|----------------------|
D|-----------------------|----------------------|----------------------|
A|-0-0-0-3-3-0-3-3-(x8)--|-0-0-0-5-5-0-5-5-(x7)-|-0-0-0-7-7-0-7-7-(x1)-|
E|-----------------------|----------------------|----------------------|
__________________________________________________________________

[Chorus I]

               Am   F
'Cause it goes through...

G  D
Oohh...

Am   F
Through...

G  D
Oohh...

(Let ring for a moment)

Am

[Guitar II (filler at end of chorus)]
[x2]
E|-----------------|
B|-----------------|
G|-----------------|
D|-----------------|
A|-0-0-0-3-5-0-5-3-|
E|-----------------|
__________________________________________________________________

[Verse II]

        Am            F
Well my sun, it won't shine
         G                       D
It won't light up the back of my mind
          Am                F
And these fires, they don't burn
          G                         D
Except to blacken the memories I've earned
          F            G
And these walls are so thin
         E                  D
But they keep on holding me in
            F             G
'Cause I've pushed, and I know
             E               E
That there's nowhere left to go
__________________________________________________________________

[Chorus II (x2)]

               Am   F
'Cause it goes through...

G  D
Oohh...

Am   F
Through...

G  D
Oohh...
__________________________________________________________________

[Interlude/Solo/Chorus III]
[Guitar I]
[x1]
(Let each chord ring for a moment)

Am  Am  Am  Am

[x2]

Am  F  G  D

[x2]
               Am   F
'Cause it goes through...

G  D
Oohh...

[x1]
(Song ends on this chord)

Am 

[Guitar II (filler/solo)]
E|---------------------------|------------------------|
B|---------------------------|------------------------|
G|---------------------------|------------------------|
D|-----------2---------------|-----------2------------|
A|-0--3--5-3----0--3--5-(x3)-|-0--3--5-3----0--3-(x1)-|
E|---------------------------|------------------------|

E|------------------------------------------------------------|
B|------------------------------------------------------------|
G|------------------------------------------------------------|
D|----2~----------------2--0------------------5--2~-----------|
A|-0--------3--5---3-5---------3-0---3--5--5-----------3--5---|
E|------------------------------------------------------------|

E|------------------------------------------------------------|
B|------------------------------------------------------------|
G|------------------------------------5--4-----2--------------|
D|------2---------------------5--2~---------5-----2--5--0~----|
A|-3-5-----5---3-5---3--5--5----------------------------------|
E|------------------------------------------------------------|

E|--------------------------------------------------------------------|
B|--------------------------------------------------------------------|
G|-5--4-----2-----0-------5--4-----2-------------5--4-----2-----0-----|
D|-------5-----0-----2~---------5-----2--5--0~---------5-----0-----2~-|
A|--------------------------------------------------------------------|
E|--------------------------------------------------------------------|            
Please rate this chords

Your page rank:

Other People See