Passenger – Let Her Go

[Intro]

G|-14h16p14--------------16-14h16p14---------------16-14---14h16p14-----------------19-16--14-16-----|
D|---------17-14h16h17-14------------17-14h16h17-14----------------17-14h16h17-14h17-----17----------|
A|---------------------------------------------------------------------------------------------------|
E|---------------------------------------------------------------------------------------------------|


[Chorus]
Well you only need the light when it's burning low
Only miss the sun when it stsrts to snow

G|-14-14-14-16-14--------------------14-16-14--14-14-14-14/16-14-------------|
D|---------------17-----------16-17----------17-----------------17-----------|
A|-----------------15-15-15-15-----------------------------------------------|
E|---------------------------------------------------------------------------|

Only know you love her when you let her go
Only know you've been high when you're feeling low.

G|-14-16-14--14-------------------14-16-16/14-14--------------------------|
D|---------17--17-14-14-14-16-17----------------17-----------16/17--------|
A|------------------------------------------------15-15-15-15-------------|
E|------------------------------------------------------------------------|

Only hate the road when you're missing home
Only know you love her when you let her go

G|-14-16-14--12/14-14-14-16-14------14-16-14--14---------------------|
D|---------17-----------------17p14---------17--17-14--14-16-17-(16)--|
A|---------------------------------------------------17--------------|
E|-------------------------------------------------------------------|

And you let her go

G|--14--16p14----------|
D|----17-----17p14-----|
A|---------------------|
E|---------------------|


[Verse]

Starin at the bottom of your glass
Hopin one day you'll make a dream last

G|-16-16-16-16-16-14--14-----17-16-16-14-14-14--14----------|
D|------------------17--17--------------------17--17-16-----|
A|----------------------------------------------------------|
E|----------------------------------------------------------|

But dreams come slow and they go so fast

G|---14/16-14----------14/16-14-----------|
D|-17--------17--14-14---------14---------|
A|----------------------------------------|
E|----------------------------------------|


[Verse 2]

You see her when you close your eyes
Maybe one day you'll understand why

G|---16-16-16-16-16p14----------17-16-16-14-14/12-14p16------|
D|-17-----------------17-14/17-------------------------16---|
A|----------------------------------------------------------|
E|----------------------------------------------------------|

Everything you touch surely dies

G|-14/16-16-16-16-16--16/14---|
D|------------------17--------|
A|----------------------------|
E|----------------------------|


[Chorus]

But you only need the light when it's burning low
Only miss the sun when it starts to snow

G|-14-14-14-16-14--------------------14-16-14-12/14-14-14-16-14----|
D|---------------17-----------14/17----------------------------17--|
A|-----------------15-15-15-15-------------------------------------|
E|-----------------------------------------------------------------|

Only know you love her when you let her go

G|-14-16-14--14------------------------|
D|---------17--17-12/14-14-16-17-------|
A|-------------------------------------|
E|-------------------------------------|

Only know you've been high when you're feeling low
Only hate the road when you're missing home

G|-14-16-16p14-14---------------------14-16-14--12/14-14-14-16p14------|
D|---------------17-14-14-14-14-16-17---------17-----------------17p14-|
A|---------------------------------------------------------------------|
E|---------------------------------------------------------------------|

Only know you love her when you let her go
(1:52)

G|-14-16-14--14------------------------|
D|---------17--17-12/14-14-16-17-------|
A|-------------------------------------|
E|-------------------------------------|


[Verse 3]

Starin at the ceiling in the dark
Same old empty feeling in your heart

G|-16-16-16-16-16-14--14-----17-16-16-14-14-14--14----------|
D|------------------17--17--------------------17--17-16-----|
A|----------------------------------------------------------|
E|----------------------------------------------------------|

Cause love comes slow and it goes so fast

G|---14/16-14----------14/16-14-----------|
D|-17--------17--14-14---------14---------|
A|----------------------------------------|
E|----------------------------------------|

[Verse 4]

Well you see her when you fall asleep
But never to touch and never to keep

G|-------------------------------------------------------------|
D|-12-12-12-12-12-12-12/10-10/9-9-14-14-14-14-12---------------|
A|---------------------------------------------12-12-14-15p14--|
E|-------------------------------------------------------------|

Cause you loved her too much
And you dived too deep

G|-------------------------------------|
D|-------------------------------------|
A|-14-14-14-14-14-14-----14/12-12------|
E|------------------15-15--------15----|

[Chorus]

But you only need the light when it's burning low
Only miss the sun when it starts to snow

G|-14-14-14-16-14--------------------14-16-14-12/14-14-14-16-14----|
D|---------------17-----------14/17----------------------------17--|
A|-----------------15-15-15-15-------------------------------------|
E|-----------------------------------------------------------------|

Only know you love her when you let her go

G|-14-16-14--14------------------------|
D|---------17--17-12/14-14-16-17-------|
A|-------------------------------------|
E|-------------------------------------|

Only know you've been high when you're feeling low
Only hate the road when you're missing home

G|-19-19-19-19-16-17-17-17-17-16-19-16---19-19-19-19-19--------------17p16---|
D|-----------------------------------------------------19-19-19-19-17--------|
A|---------------------------------------------------------------------------|
E|---------------------------------------------------------------------------|

Only know you love her when you let her go

G|-14-16-14--14------------------------|
D|---------17--17-12/14-14-16-17-------|
A|-------------------------------------|
E|-------------------------------------|

And you let her gooooooo (x2) --play this part twice--

G|-14---14/16-14-16-16--14-16/17-17-16---------|
D|---17-------------------------------17p16----|
A|---------------------------------------------|
E|---------------------------------------------|

Well you let her go-o

G|-----------------------------|
D|-12-12-12--14/12-------------|
A|---------14------------------|
E|-----------------------------|


[Chorus]


Cause you only need the light when it's burning low
Only miss the sun when it starts to snow

G|-14-14-14-16-14--------------------14-16-14-12/14-14-14-16-14----|
D|---------------17-----------14/17----------------------------17--|
A|-----------------15-15-15-15-------------------------------------|
E|-----------------------------------------------------------------|

Only know you love her when you let her go

G|-14-16-14--14------------------------|
D|---------17--17-12/14-14-16-17-------|
A|-------------------------------------|
E|-------------------------------------|

Only know you've been high when you're feeling low
Only hate the road when you're missing home

G|-14-14-14-16-14--------------------14-16-14-12/14-14-14-16-14----|
D|---------------17-----------14/17----------------------------17--|
A|-----------------15-15-15-15-------------------------------------|
E|-----------------------------------------------------------------|

Only know you love her when you let her go

G|-14-16-14--14------------------------|
D|---------17--17-12/14-14-16-17-------|
A|-------------------------------------|
E|-------------------------------------|

Cause you only need the light when it's burning low
Only miss the sun when it stsrts to snow

G|-14-14-14-16-14--------------------14-16-14--14-14-14-14/16-14-------------|
D|---------------17-----------16-17----------17-----------------17-----------|
A|-----------------15-15-15-15-----------------------------------------------|
E|---------------------------------------------------------------------------|

Only know you love her when you let her go
Only know you've been high when you're feeling low.

G|-14-16-14--14-------------------14-16-16/14-14--------------------------|
D|---------17--17-14-14-14-16-17----------------17-----------16/17--------|
A|------------------------------------------------15-15-15-15-------------|
E|------------------------------------------------------------------------|

Only hate the road when you're missing home
Only know you love her when you let her go

G|-14-16-14--12/14-14-14-16-14------14-16-14--14---------------------|
D|---------17-----------------17p14---------17--17-14--14-16-17-(16)--|
A|---------------------------------------------------17--------------|
E|-------------------------------------------------------------------|

And you let her go

G|--14--16p14----------|
D|----17-----17p14-----|
A|---------------------|
E|---------------------|

            
Please rate this chords

Your page rank:

Other People See