Passenger – Nothing Aches Like A Broken Heart Acoustic

[Intro]
                                               Gadd2     Gadd2
             Am7           D7                    G             C
e|---------|---------------------------------|---------------------------------|
B|-----0-1-|-----------0---------------------|-------0---------------------0-1-|
G|-0-2-----|-------0-------2---------------2-|-2p0-------2---0---------0-2-----|
D|---------|-----2-----------0-------0-------|-----0---------------2-----------|
A|---------|-0-------------------------------|-----------------3---------------|
E|---------|---------------------------------|-3------(3)----------------------|
   4 e + a | 1 e + a 2 e + a 3 e + a 4 e + a   1 e + a 2 e + a 3 e + a 4 e + a
 
                                     Gadd2     Gadd2
   Am7           D7                    G             C
e|---------------------------------|-----------------------0---------|
B|-----------0---------------------|-------3p0---------------3-1-0-1-|
G|-------0-------2---------------2-|-2p0-------2---0-----------------|
D|-----2-----------0-------0-------|-----0---------------2-----------|
A|-0-------------------------------|-----------------3---------------|
E|---------------------------------|-3-------------------------------|
   1 e + a 2 e + a 3 e + a 4 e + a   1 e + a 2 e + a 3 e + a 4 e + a
 
                                     Gadd2     Gadd2
   Am7           D7                    G             C
e|---------------------------------|---------------------------------|
B|-----------0---------------------|-------3p0---------------0-------|
G|-------0-------2---------------2-|-2p0-------2---0-------0---0-2---|
D|-----2-----------0-------0-------|-----0---------------------------|
A|-0-------------------------------|-----------------3---------------|
E|---------------------------------|-3-------------------------------|
   1 e + a 2 e + a 3 e + a 4 e + a   1 e + a 2 e + a 3 e + a 4 e + a
 
   Am        Asus2   Am    Am7*      D7sus2            D7
e|-------------------------3-------|-----------0-----0h2-------------|
B|-----------0-----0h1-----1-------|-------1-------------------------|
G|-------2-------2---------0-------|-----2---------2-----------------|
D|-----2-------2-------2-----------|-0------(0)-(0)--0---------------|
A|-0-------0-------0-------0-------|---------------------------------|
E|---------------------------------|---------------------------------|
   1 e + a 2 e + a 3 e + a 4 e + a   1 e + a 2 e + a 3 e + a 4 e + a
 
[Intro]
Am7 D7 G C  x3
Am7 Am7* D7sus2 D7
 
 
[Verse 1]
               Am7      D7
I know you're sad and scared
    G                   C
And you can't find your way
C/B     Am7              D7
  Overwhelmed, under prepared
    G                 C
And have no words to say
C/B       Am7                D7
So many friends in so many places
       G          G/F#      Em
So many young and beautiful faces
                  Am7  Am7*
But none of them hers
                 D7sus2 D7
None of them hers
 
 
[Verse 2]
               Am7      D7
I know you're sick and tired
    G                C
Of long and winding roads
C/B        Am7              D7
Places to be and people to see
    G                       C
But never sure of where to go
C/B      Am7*               D7
So many ways and so many choices
       G           G/F#     Em
So many sweet and soothing voices
              Am7  Am7*
None of them hers
                 D7sus2 D7sus4 D7
No none of them hers
 
 
[Chorus]
C             G                    Em
  For nothing aches like a broken heart
        A7                 C
Lying awake in the lonely dark
        G                    Em    A7 A7*
Nothing aches like a broken he-e-a-art
C               G             Em
  Don't try to love again too soon
                A7              C
You're rubbing salt in an open wound
        Dadd4                G   C/G G
Nothing aches like a broken heart
 
 
[Instrumental]
                                               Gadd2     Gadd2
             Am7           D7                    G             C
e|---------|---------------------------------|---------------------------------|
B|-----0-1-|-----------0---------------------|-------0---------------------0---|
G|-0-2-----|-------0-------0-2-------------2-|-2p0-------2---0---------0-2-----|
D|---------|-----2-----------0-------0-------|-----0---------------------------|
A|---------|-0-------------------------------|-----------------3---------------|
E|---------|---------------------------------|-3-------3-----------------------|
   4 e + a | 1 e + a 2 e + a 3 e + a 4 e + a   1 e + a 2 e + a 3 e + a 4 e + a
 
                                             Dsus2
     Am7           Am7*              D               D
e|-----------------3-------0-------|---------------0-2---------------|
B|-0h1-------------1-----------2---|-----------2---------------------|
G|-----------0-----0---------------|-2-------------------------------|
D|-----2-------2---------2---------|-0-------------------------------|
A|-0-------0-------0---------------|---------------------------------|
E|---------------------------------|---------------------------------|
   1 e + a 2 e + a 3 e + a 4 e + a   1 e + a 2 e + a 3 e + a 4 e + a
 
 
[Verse 3]
                      Am7              D7
Now you're trying to find what you've lost
    G                    C
And don't know where to turn
C/B       Am7          D7
  Single mind double crossed
     G                 C
With all your bridges burned
C/B      Am7                D7
So many roads and so many plans
       G          G/F#   Em
So many warm and loving hands
                  Am7  Am7*
But none of them hers
                 D7 D7sus4 D7
No none of them hers
 
 
[Chorus]
C             G                    Em
  For nothing aches like a broken heart
        A7                 C
Lying awake in the lonely dark
        G                    Em    A7 A7*
Nothing aches like a broken he-e-a-art
C               G             Em
  Don't try to love again too soon
                A7             C
You're rubbing salt in an open wound
        Dadd4                Em  (D E D G)
Nothing aches like a broken heart
C            Dadd4                G   Gsus4 G
  No nothing aches like a broken heart
 
 
 
 
Alternative instrumental section before Verse 3 (from live performance from The Royal Albert Hall)
                                               Gadd2     Gadd2
             Am7           D7                    G             C
e|---------|---------------------------------|---------------------------------|
B|-----0-1-|-----------0---------------------|-------0-----------------0-------|
G|-0-2-----|-------0-------0-2-------------2-|-2p0-------2---0-------0-----0-2-|
D|---------|-----2-----------0-------0-------|-----0---------------------------|
A|---------|-0-------------------------------|-----------------3---------------|
E|---------|---------------------------------|-3-------3-----------------------|
   4 e + a | 1 e + a 2 e + a 3 e + a 4 e + a   1 e + a 2 e + a 3 e + a 4 e + a
 
 
   Am        Asus2   Am    Am7*      D7sus4   D7sus2 D7
e|-------------------------3-------|-3---------0-----2---------------|
B|-----------0-----1-------1-------|-1---------------1---------------|
G|-------2-------2---------0-------|-2-----2---------2---------------|
D|-----2-------2-------2-----------|-0--(0)-(0)-(0)--0---------------|
A|-0-------0-------0-------0-------|---------------------------------|
E|---------------------------------|---------------------------------|
   1 e + a 2 e + a 3 e + a 4 e + a   1 e + a 2 e + a 3 e + a 4 e + a
            
Please rate this chords

Your page rank:

Other People See