Passenger – The Venice Canals

Intro/instrumental:
         G                 Am7                D7                  G
E|---------2---3---|-3---------------|-2-----2-3---2---|-0-------------------|
B|-3-----3---------|-1-----1-1-------|-1---1-----1---1-|-0-----3-3-----------|
G|-0---0-----------|-0---0-------0---|-2-2-------------|-0---0-------0-------|
D|-0-0-------0---0-|---2-------2---2-|-0---------------|---0-------0---0-----|
A|-----------------|-0---------------|-----------------|---------------------|
E|-3-------3-------|-----------------|-----------------|-3-------------------|
             G                  Am7            D7                  G
E|-3-----3-5---7---10-------|---------|-2-----2-3-------|-3------------------|
B|-0---0-----0---0--------0-|-1-------|-1---1-------1---|-0---0h2---0--------|
G|-0-0------------------0---|-----0---|-2-2-------2---2-|-0-------------0----|
D|--------------------0-----|---2---2-|-0---------------|---0-----0---0---0--|
A|-----------------0--------|-0-------|-----------------|--------------------|
E|-3------------------------|---------|-----------------|-3---3-----3--------|
 
Verse:
     G       C             G            C       D/F#       G
E|----------------------------------|----------------------------------------|
B|-0---0---1---1---0---0h1--0---0---|-1---1---3---3---0---0h1--0---0---------|
G|----------------------------------|----------------------------------------|
D|---0---0---2---2---0--------0---0-|---2---2---4---4---0--------0---0-------|
A|---------3---3--------------------|-3---3---5---5--------------------------|
E|-3---3-----------3---3----3---3---|-----------------3---3----3---3---------|
 
    C       D/F#     Em               Am7              D7
e|-------------------------0---------------3-------------3-2-----------------|
B|-1---1---3---3---0-----0-------0-1-----1-------1-----1-------1-------------|
G|---------------------0-----0---------0-----0-------2-------2---2-----------|
D|---2---2---4---4---2---------2-----2---------2---0-------------------------|
A|-3---3---5---5-------------------0-----------------------------------------|
E|-----------------0---------------------------------------------------------|
 
 
Chorus:
     C      D7     G   F#m   Em          Am7    D7           G
e|---------2---2---------------------|---------2---2-------------------------|
B|-1---1-----------0---0---0---0-----|-1---1-----------0---0h1-0---0---------|
G|-----------2---2-------------------|-----------2---2-----------------------|
D|---2---2-0---0-----0---0---2---2---|---2---2-0---0-----0-------0---0-------|
A|-3---3-----------------------------|-0---0---------------------------------|
E|-----------------3---2---0---0-----|-----------------3---3---3---3---------|
 
 
[Verse 1]
 
G      C                     G
Well I know there's pain and suffering
C                D/F#           G
You can feel the tension in the air
C                   D/F#           Em
But they can see the stars shine in Beijing
Am7                        D7
And hear the birdsong in Times Square
 
G      C                   G
Well I know you're feeling insecure
C             D/F#                  G
From all this change that's come to pass
C              D/F#        Em
But the sky is blue in Singapore
Am7                                D7
And they can smell the ocean in Belfast
 
 
[Chorus]
C            D7
Don't get me wrong
     G        F#m   Em
This ain't no happy song
            Am7             D7            G
And there's nothing you can hold onto for now
C                       D7
But when you're feeling low, my dear
     G        F#m     Em
Just know the water's crystal clear
        Am7               D7              G
And the fish are swimming in the Venice Can*ls
 
 
[Instrumental]
 
 
[Verse 2]
G      C                           G
Well I know there's heartbreak and sorrow
C                         D/F#          G
And I know there's really nothing I can say
C        D/F#     Em
We'll be closer tomorrow
Am7
To the end of all this
            D7
Than we are today
 
G            C                G
So watch the sunset from your window
C        D/F#            G
Hear the rainfall on the ground
C         D/F#                Em
Tell your loved ones that you love them
Am7                             D7
And miss the ones that aren't around
 
 
[Chorus]
C            D7
Don't get me wrong
     G        F#m   Em
This ain't no happy song
            Am7             D7            G
And there's nothing much to hold onto for now
C                       D7
But when you're feeling low, my dear
     G        F#m     Em
Just know the water's crystal clear
        Am7               D7              G
And the fish are swimming in the Venice Can*ls
            
Please rate this chords

Your page rank:

Other People See