Pink Floyd – Paint Box

[Bridge riff]
    Csus2                       Dsus2
e |--------10----------10-----|--------12----------12-----|
B |-----13----13----13----13--|-----15----15----15----15--|
G |--12----------12-----------|--14----------14-----------|
D |---------------------------|---------------------------|
A |---------------------------|---------------------------|
E |---------------------------|---------------------------|

   Dsus2
e |--------12----------12-----|--------12----------12-----|
B |-----15----15----15----15--|-----15----15----15----15--|
G |--14----------14-----------|--14----------14-----------|
D |---------------------------|---------------------------|
A |---------------------------|---------------------------|
E |---------------------------|---------------------------|

*********************************************************************

[Intro] 
     Emadd9
e |---0--0--------------------------| [x4]
B |---0--0--------------------------|
G |---0--0--------------------------|
D |---4--4--------0-h2--0-h2--0-h2--|
A |---2--2-----2--------------------|
E |---0--0--------------------------|


[Verse 1]
Emadd9
        Last night I had too much to drink,
G/D                                         C
      Sitting in a club with so many fools,    playing to rules,
F                                         Am
   Trying to impress, and feeling rather empty,
F              G      C
   I had a - nother drink, a drink, a drink, a drink, a drink...
     Emadd9
...a drink!
e |---0--0--------------------------| [x4]
B |---0--0--------------------------|
G |---0--0--------------------------|
D |---4--4--------0-h2--0-h2--0-h2--|
A |---2--2-----2--------------------|
E |---0--0--------------------------|


[Verse 2]
Emadd9
        What a way to spend that evening,
G/D                                       C
     They all turn up with their friends,    playing their games,
F                                           Am
    They're in the scene, oh, I should have been...
F            G       C
    Far-------- a - way, away, away, away, away!


[Bridge]
  B     A#      A      G#        G      F#          F         E
Getting up, I feel so bad re - member - ing what's been be - fore,
Eaddb9 E  Eaddb9 E Eaddb9 E     Csus2             Dsus2
                      I open the door to an empty room,
             Dsus2
Then I for - get-------!


[Break]
    Emadd9
e |--0--0--------------------------| [x4]
B |--0--0--------------------------|
G |--0--0--------------------------|
D |--4--4--------0-h2--0-h2--0-h2--|
A |--2--2-----2--------------------|
E |--0--0--------------------------|


[Verse 3]
Emadd9
        The telephone rings, and someone speaks,
G/D                                  C
     She would very much like to go   ...out to a show,
F                                             Am
    So, what can I do?  I can't think what to say,
F                     G     C
    She sees through any - way, a way, a way, a way, a way...
     Emadd9
...a way!
e |---0--0--------------------------| [x4]
B |---0--0--------------------------|
G |---0--0--------------------------|
D |---4--4--------0-h2--0-h2--0-h2--|
A |---2--2-----2--------------------|
E |---0--0--------------------------|


[Verse 4]
Emadd9
        Out of the front door I go,
G/D                                 C
     Traffic's moving rather slow,     arriving late,
F                                 Am
   There she waits, looking very angry,
F               G      C
   As cross as she can be, a - be, a - be, a - be, a - be!


[Bridge]
  B     A#      A      G#        G      F#          F         E
Getting up, I feel so bad re - member - ing what's been be - fore,
Eaddb9 E  Eaddb9 E Eaddb9 E     Csus2             Dsus2
                      I open the door to an empty room,
             Dsus2
Then I for - get-------!


[Coda]
    Dsus2
     Ah----------------ah---,    ah--- ah,ah,ah----------!
e |--------12----------12-----|--------12----------12-----|
B |-----14----14----14----14--|-----14----14----14----14--|
G |--14----------14-----------|--14----------14-----------|
D |---------------------------|---------------------------|
A |---------------------------|---------------------------|
E |---------------------------|---------------------------|

    Dsus2
e |--------12----------12-----|--------12----------12-----|
B |-----14----14----14----14--|-----14----14----14----14--|
G |--14----------14-----------|--14----------14-----------|
D |---------------------------|---------------------------|
A |---------------------------|---------------------------|
E |---------------------------|---------------------------|

    Dsus2
     Ah----------------ah---,    ah--- ah,ah,ah----------!
e |--------12----------12-----|--------12----------12-----|
B |-----14----14----14----14--|-----14----14----14----14--|
G |--14----------14-----------|--14----------14-----------|
D |---------------------------|---------------------------|
A |---------------------------|---------------------------|
E |---------------------------|---------------------------|


    Dsus2
||:  /  /  /  /  |  /  /  /  /  :|| [Repeat]


*********************************************************************

[Bridge riff - Alternative, using lower inversion chords]
    Csus2               Dsus2
e |-------------------|-------------------|
B |------3-------3----|------5-------5----|
G |----5---5---5---5--|----7---7---7---7--|
D |--5-------5--------|--7-------7--------|
A |-------------------|-------------------|
E |-------------------|-------------------|

    Dsus2
e |-------------------|-------------------|
B |------5-------5----|------5-------5----|
G |----7---7---7---7--|----7---7---7---7--|
D |--7-------7--------|--7-------7--------|
A |-------------------|-------------------|
E |-------------------|-------------------|            
Please rate this chords

Your page rank:

Other People See