Red Hot Chili Peppers – Cabron

[Intro]

E|--17------------14------------|
B|--19------------7-------------|
G|--7-------------7-------------| (x2)
D|--7-------------12------------|
A|--17 -----------14------------|
E|------------------------------|

E|-----7------------7-----7---|
B|--------8-----8------8------|
G|-----------7----------------|
D|----------------------------|
A|--10------------------------|
E|----------------------------|

                          D
E|-----7------------7-----9---|
B|--------8-----8------7--10--|
G|-----------7------------9---|
D|------------------------7---|
A|--10------------------------|
E|----------------------------|


[Verse]
                      G
E|--------------------10---|
B|--------------------7----|
G|--11--9--7----------7----|
D|------------11--12--7----|
A|--------------------9----|
E|--------------------10---|


                    Em
E|------------------7----|
B|------------------7----|
G|--9--7------------7----|
D|--------11--7-----9----|
A|---------------9--9----|
E|------------------7----|  (x2)

G       Em      G       Em
Cabron, Cabron, Cabron, Cabron.
G                             Em
I see you in the park, you're always wearing dodger blue
G                     Em
Mad doggin' me and anyone from any other crew.


[Chorus]
C                   D
I am small but I am strong. I'll get it on with you.
G              Em   G               Em
If you want me to ? what else can I do
C                     D
Everyone would take a cue from anything you do
G                Em   G                  Em
If you want them to ? what else can they do.
C                       D
I don't want to fight I want to get along with you
C                               D
This time of nights for singing songs about the local news


[Verse]
                      G
E|--------------------10---|
B|--------------------7----|
G|--11--9--7----------7----|
D|------------11--12--7----|
A|--------------------9----|
E|--------------------10---|

                    Em
E|------------------7----|
B|------------------7----|
G|--9--7------------7----|
D|--------11--7-----9----|
A|---------------9--9----|
E|------------------7----|

G       Em      G       Em
Cabron, Cabron, Cabron, Cabron.

G                                Em
I'll come around and make peace, get down have a barbeque
G                             Em
Let's keep the moon awake and do electric boogiloo


[Chorus]

C                   D
I am small but I am strong, you see I am just like you
G           Em     G                  Em
If you only knew ? that I'm just like you.
C                          D
All the world would take a cue from anything you do
G           Em     G                      Em
If you only knew ? that they're just like you.
    C                       D
I don't want to fight I want to get along with you
C                                D
This time of night's for singing songs about the local news

[Solo]

1st guitar:
G Em x4


2nd guitar:

E|--------------------|     |--------|
B|--14/19------1412--|     |--128--|
G|--------------------|(x4) |--------|
D|--------------------|     |--------|
A|--------------------|     |--------|
E|--------------------|     |--------|


[Outro]

    C                       D
I don't want to fight I want to get along with you
C                                D
This time of night's for singing songs about the local news


G          Em  G         Em
Cabron Cabron, Cabron Cabron (x2)


G               Em   G              Em
If you want me to ? what else can I do
G                   Em    G           Em
Cause I'm just like you ? if you only knew


G          Em  G         Em
Cabron Cabron, Cabron Cabron (x2)            
Please rate this chords

Your page rank:

Other People See