Red Hot Chili Peppers – We Turn Red

Tuning: E (Standard) 
 
 
CHORDS USED [IN ORDER OF FIRST APPEARANCE]: 
     Bb    Gm  Dm   Am  C
e]---x-----x---5----0---x---|
B]---3-----11--6----1---5---|
G]---3-----12--7----2---5---|
D]---3-----12--7----2---5---|
A]---1-----10--5----0---3---|
E]---x-----x---x----x---x---|

 
 [Riff 1]     [Riff 2]                        [Riff 3]     [Riff 4]
e]------------|-------------------------------|-----0------|----------------------------|
B]------------|-------------------------------|-1-3----3-1-|----------------------------|
G]------------|---------------------5-5-5-3-3-|------------|------------------5-5-5-3-3-|
D]------------|-3-5--3-5-5-3-5--3-5-----------|------------|------------------5-5-5-3-3-|
A]------------|-------------------------------|------------|-3-5-3-5-5-3-5-3-5----------|
E]-8-68-8-8--|-------------------------------|------------|----------------------------|

[Intro]
[Riff 1]


[Verse] 1

[Riff 1]
We got large and we got small,

we got a swimming pool and a cannon ball

We turn red and we turn green, 

it's the craziest thing I've ever seen


[Interlude] [Riff 1]


[Verse 2]

[Riff 2]
Lost my mind 'cause I'm on the plastic

Who knew it's so damn drastic

Show me what it is you believe in

Slowly she sinks all your teeth in


[Verse 3]

[Riff 2]
Do you want to go fishing in New Orleans

Do you want to get up early in the morning

Take me to the river where we do the little storming

Hallelujah, I feel it warming



[Pre Chorus]

[Riff 2]
Sitting here I count the moons

The orders we obeyed

Every night 'fore we go to bed

I watch while the others pray


[Chorus]

Bb
Send it off through Delaware just
Gm
Make it fair for the legionnaires
Dm                            Am   [Riff 3]
Paint a simple portrait of my kind
Bb                     
Permission to the heartless bombs
     Gm
Gold Plated Hate and the waitress moms
Dm                           C    [Riff 3]
Serving up the stories of my mind


[Verse 4]

[Riff 4]
Mexico you are my neighbor

Home of the let's be braver

Give me all your sick and your tired

Races that we admire



[Verse 5]

[Riff 4]
Do you want to go dancing in Chicago

Trinidad's got it bad for Tobago

Take me to the lake where we do the Avocado

Hallelujah, a desparado


[Pre Chorus 2]

[Riff 4]
Sitting here I count the moons

The orders we obeyed

Every night 'fore we go to bed

I watch while the others pray


[Chorus 2]

Bb
Send it off through Delaware just
Gm
Make it fair for the legionnaires
Dm                            Am   [Riff 3]                   
Paint a simple portrait of my kind
Bb
Permission to the heartless bombs
     Gm                      
Gold Plated Hate and the waitress moms
Dm                           C    [Riff 3]
Serving up the stories of my mind



[Chorus 3]

Bb
Coming down from the deserts where you
Gm
Caught a glimpse of the billionaire
Dm                                Am  [Riff 3]
Tell me I'm the right one for the ride
Bb
Paper signs out on the lawns
Gm
Gold minds and the priceless pawns
Dm                           C    [Riff 3]
Does your canyon really open wide


[Outro]

[Riff 1]
We got large and we got small,

we got a swimming pool and a cannon ball

We turn red and we turn green,

it's the craziest thing I've ever seen


[Ending]

[Riff 1]            
Please rate this chords

Your page rank:

Other People See