Scorpions – Back To You

Intro: F#  Bbm  E  C# (2X)

Guitar 1 - Rudolf

E|-14--------|-13--------|-12--------|-13-----------------|-14--------|-13--------|-12--------|-13------|
B|-11--------|-14--------|-12--------|-14-----------------|-11--------|-14--------|-12--------|-14------|
G|-11--------|-15--------|-13--------|-13-----------------|-11--------|-15--------|-13--------|-13------|
D|-11--------|-15--------|-14--------|-11-----------------|-11--------|-15--------|-14--------|-11------|
A|-13--------|-13--------|-14--------|--------------------|-13--------|-13--------|-14--------|---------|
E|-14--------|-----------|-12--------|--------------------|-14--------|-----------|-12--------|---------|

Guitar 2 - Matthias

E|-14----------|-13--------|-12----14---|----------13h14p13-11-------|
B|-------14----|-----------|------------|-------14-------------14----|
G|----------15-|-----------|------------|----13-------------------13-|
D|-------------|-----------|------------|-11-------------------------|
A|-------------|-13--------|------------|----------------------------|
E|-14----------|-----------|-12---------|----------------------------|

E|-14----------|-13--------|-12----14---|-13------|
B|-------14----|-----------|------------|-14------|
G|----------15-|-----------|------------|-13------|
D|-------------|-----------|------------|-11------|
A|-------------|-13--------|------------|---------|
E|-14----------|-----------|-1----------|---------|


F#                        Bbm
Jealous hearts are wild,  Oh! So wild
E             C#
Like a raging storm
F#                        Bbm
Jealous hearts are blue,  Oh! So blue
E                       C#
When all the dreams are gone

Bm                         F#
Maybe we were born to lick honey from a thorn
D#m                            C#
But I don't think it's true at all

F#                        Bbm
Jealous hearts are high,  Oh! So high
E            C#
On emotions; Oh, yeah!
F#                        Bbm
Jealous hearts are deep,  Oh! So deep
E                   C#
Deep like an ocean; Oh, yeah!

Bm                         F#
Maybe we were lost without feelings in a dust
D#m                           C#
But I'll be there the day I'll fall


F#          D#m            F#
 Wherever I go (wherever I go)
            D#m            B
 Wherever I go (wherever I go)
                  G#m     Bm  C#
 The road takes me home to you


F#                       Bbm
Jealous hearts are wild, Oh! So wild
E                 C#
Just all dark and blue
F#                      Bbm
Jealous hearts are red, so dark red
E                C#
Just like roses; Oh, yeah!

Bm                         F#
Maybe we were born to lick honey from a thorn
D#m                            C#
But I don't think it's true at all 


F#          D#m            F#
 Wherever I go (wherever I go)
            D#m            B
 Wherever I go (wherever I go)
                  G#m     Bm  C#
 The road takes me home to you


F#
Yeah! Yeah!
Bm
There's a lonely guy
F#m
Who's sitting on a cloud
Am                        C#
Who only wants to be with you


Solo:  F#  Bbm  E  C# (2X)


Bm                         F#
Maybe we were born to lick honey from a thorn
D#m                            C#
But I don't think it's true at all


F#          D#m            F#
 Wherever I go (wherever I go)
            D#m            B
 Wherever I go (wherever I go)
                  G#m     Bm  C#
 The road takes me home to you

 F#  Bbm  E  C#
 Back to you            
Please rate this chords

Your page rank:

Other People See