Scorpions – Lonely Nights

Am            F         G      Em       Am         F        G 
|--------------------------------------|--------------------------------------| 
|-------0---------0-------0------0-----|----0---------0--------0--------0-0---| 
|---------5---------5------0-------0---|------5---------5--------0------------| 
|-----------7--------7------7--------7-|--------7---------7--------7----------| 
|-0----------8---------5------7--------|-0--------8---------5--------3-------2| 
|--------------------------------------|--------------------------------------| 
Am            F         G      Em       Am                        F 
|-------------------------------------|----------------------|----------------| 
|------0---------0-------0------0-----|-----0---------0------|----0-----------| 
|--------5---------5------0-------0---|-------5---------5----|----0-----------| 
|-----------7--------7------7-------7-|---------7---------7--|----7-----------| 
|--0----------8-------5------7--------|-0---------8----------|----5-----------| 
|-------------------------------------|----------------------|----------------|  

 
Am    F         G 
Since you're gone, 
Em        Am         F 
There is an empty space; 
G     Am     F  G 
Since you're gone, 
   Em        Am     F    G 
The world is not the same.

Am               Dm 
I go back to the places we've been, 
   G                       C 
It feels like you're still there; 
Am               Dm 
I live all those moments again 
G                E 
Wishing you were here.. 
 
Am    F     G 
Since you're gone, 
 Em        Am        F 
There is an lonely heart; 
G     Am     F  G 
Since you're gone, 
 Em        Am      F    G 
Nothing is like it was. 
 
Am                     Dm 
There are memories all over the place, 
G                       C 
Bringing it back all so clear;
Am           Dm 
Remember all of those days, 
G                E 
Wishing you were here..


Am        F              Am          
All those lonely nights, lonely nights,
F              Am
Lonely nights, lonely nights 
Am               F               C 
Lonely nights, I gotta fight for you 
 C    
Yes I do...


Am     F     G                
Since you're gone 
Em        Am         F
There?s a heart that bleeds 
G    Am      F  G
Since you're gone 
    Em           Am       F    G
I'm not the man I used to be 
 
Am              Dm 
I follow your steps in the snow, 
G               C 
The traces disappear; 
Am                 Dm
We know what we've lost when it's gone 
G                     E 
 I'm wishing you were here.. 


Am        F              Am          
All those lonely nights, lonely nights,
F              Am
Lonely nights, lonely nights 
Am               F               C 
Lonely nights, I gotta fight for you 
 C    
Yes I do...            
Please rate this chords

Your page rank:

Other People See